ISO-10303-21;
HEADER;
/* Generated by software containing ST-Developer
 * from STEP Tools, Inc. (www.steptools.com) 
 */
/* OPTION: strings as raw bytes, not using required /X/ escapes */

FILE_DESCRIPTION(
/* description */ ('Unknown'),
/* implementation_level */ '2;1');

FILE_NAME(
/* name */ 'OF.10510-001',
/* time_stamp */ '2023-07-27T09:24:29+02:00',
/* author */ ('Unknown'),
/* organization */ ('Unknown'),
/* preprocessor_version */ 'ST-DEVELOPER v18.102',
/* originating_system */ 'Solid Edge',
/* authorisation */ 'Unknown');

FILE_SCHEMA (('AUTOMOTIVE_DESIGN {1 0 10303 214 3 1 1}'));
ENDSEC;

DATA;
#10=PROPERTY_DEFINITION_REPRESENTATION(#14,#12);
#11=PROPERTY_DEFINITION_REPRESENTATION(#15,#13);
#12=REPRESENTATION('',(#16),#93);
#13=REPRESENTATION('',(#17),#93);
#14=PROPERTY_DEFINITION('pmi validation property','',#100);
#15=PROPERTY_DEFINITION('pmi validation property','',#100);
#16=VALUE_REPRESENTATION_ITEM('number of annotations',COUNT_MEASURE(0.));
#17=VALUE_REPRESENTATION_ITEM('number of views',COUNT_MEASURE(0.));
#18=CONTEXT_DEPENDENT_SHAPE_REPRESENTATION(#20,#102);
#19=NEXT_ASSEMBLY_USAGE_OCCURRENCE('TR3','TR3','TR3',#103,#104,'');
#20=(
REPRESENTATION_RELATIONSHIP(' ',' ',#60,#61)
REPRESENTATION_RELATIONSHIP_WITH_TRANSFORMATION(#21)
SHAPE_REPRESENTATION_RELATIONSHIP()
);
#21=ITEM_DEFINED_TRANSFORMATION(' ',' ',#62,#68);
#22=SHAPE_REPRESENTATION_RELATIONSHIP('','',#60,#23);
#23=ADVANCED_BREP_SHAPE_REPRESENTATION('',(#57),#94);
#24=CYLINDRICAL_SURFACE('',#67,23.5);
#25=ORIENTED_EDGE('',*,*,#29,.F.);
#26=ORIENTED_EDGE('',*,*,#30,.T.);
#27=ORIENTED_EDGE('',*,*,#29,.T.);
#28=ORIENTED_EDGE('',*,*,#30,.F.);
#29=EDGE_CURVE('',#31,#31,#33,.T.);
#30=EDGE_CURVE('',#32,#32,#34,.T.);
#31=VERTEX_POINT('',#86);
#32=VERTEX_POINT('',#89);
#33=CIRCLE('',#64,23.5);
#34=CIRCLE('',#66,23.5);
#35=EDGE_LOOP('',(#25));
#36=EDGE_LOOP('',(#26));
#37=EDGE_LOOP('',(#27));
#38=EDGE_LOOP('',(#28));
#39=FACE_BOUND('',#35,.T.);
#40=FACE_BOUND('',#36,.T.);
#41=FACE_BOUND('',#37,.T.);
#42=FACE_BOUND('',#38,.T.);
#43=PLANE('',#63);
#44=PLANE('',#65);
#45=ADVANCED_FACE('',(#39),#43,.F.);
#46=ADVANCED_FACE('',(#40),#44,.T.);
#47=ADVANCED_FACE('',(#41,#42),#24,.T.);
#48=CLOSED_SHELL('',(#45,#46,#47));
#49=STYLED_ITEM('',(#50),#57);
#50=PRESENTATION_STYLE_ASSIGNMENT((#51));
#51=SURFACE_STYLE_USAGE(.BOTH.,#52);
#52=SURFACE_SIDE_STYLE('',(#53));
#53=SURFACE_STYLE_FILL_AREA(#54);
#54=FILL_AREA_STYLE('',(#55));
#55=FILL_AREA_STYLE_COLOUR('',#56);
#56=COLOUR_RGB('',0.506983280181885,0.531564235687256,0.550000011920929);
#57=MANIFOLD_SOLID_BREP('NONE',#48);
#58=SHAPE_DEFINITION_REPRESENTATION(#101,#60);
#59=SHAPE_DEFINITION_REPRESENTATION(#100,#61);
#60=SHAPE_REPRESENTATION('TR3',(#62),#94);
#61=SHAPE_REPRESENTATION('807_TR3',(#62,#68),#93);
#62=AXIS2_PLACEMENT_3D('',#83,#69,#70);
#63=AXIS2_PLACEMENT_3D('',#84,#71,#72);
#64=AXIS2_PLACEMENT_3D('',#85,#73,#74);
#65=AXIS2_PLACEMENT_3D('',#87,#75,#76);
#66=AXIS2_PLACEMENT_3D('',#88,#77,#78);
#67=AXIS2_PLACEMENT_3D('',#90,#79,#80);
#68=AXIS2_PLACEMENT_3D('',#91,#81,#82);
#69=DIRECTION('',(0.,0.,1.));
#70=DIRECTION('',(1.,0.,0.));
#71=DIRECTION('',(0.,0.,1.));
#72=DIRECTION('',(1.,0.,0.));
#73=DIRECTION('',(0.,0.,1.));
#74=DIRECTION('',(1.,0.,0.));
#75=DIRECTION('',(0.,0.,1.));
#76=DIRECTION('',(1.,0.,0.));
#77=DIRECTION('',(0.,0.,1.));
#78=DIRECTION('',(1.,0.,0.));
#79=DIRECTION('',(0.,0.,-1.));
#80=DIRECTION('',(-1.,0.,0.));
#81=DIRECTION('',(0.,0.,1.));
#82=DIRECTION('',(1.,0.,0.));
#83=CARTESIAN_POINT('',(0.,0.,0.));
#84=CARTESIAN_POINT('',(0.,0.,95.));
#85=CARTESIAN_POINT('',(0.,0.,95.));
#86=CARTESIAN_POINT('',(23.5,0.,95.));
#87=CARTESIAN_POINT('',(0.,0.,150.));
#88=CARTESIAN_POINT('',(0.,0.,150.));
#89=CARTESIAN_POINT('',(23.5,0.,150.));
#90=CARTESIAN_POINT('',(0.,0.,150.));
#91=CARTESIAN_POINT('',(0.,0.,0.));
#92=MECHANICAL_DESIGN_GEOMETRIC_PRESENTATION_REPRESENTATION('',(#49),#93);
#93=(
GEOMETRIC_REPRESENTATION_CONTEXT(3)
GLOBAL_UNCERTAINTY_ASSIGNED_CONTEXT((#95))
GLOBAL_UNIT_ASSIGNED_CONTEXT((#99,#98,#97))
REPRESENTATION_CONTEXT('807_TR3','TOP_LEVEL_ASSEMBLY_PART')
);
#94=(
GEOMETRIC_REPRESENTATION_CONTEXT(3)
GLOBAL_UNCERTAINTY_ASSIGNED_CONTEXT((#96))
GLOBAL_UNIT_ASSIGNED_CONTEXT((#99,#98,#97))
REPRESENTATION_CONTEXT('TR3','COMPONENT_PART')
);
#95=UNCERTAINTY_MEASURE_WITH_UNIT(LENGTH_MEASURE(0.005),#99,
'DISTANCE_ACCURACY_VALUE','Maximum Tolerance applied to model');
#96=UNCERTAINTY_MEASURE_WITH_UNIT(LENGTH_MEASURE(0.005),#99,
'DISTANCE_ACCURACY_VALUE','Maximum Tolerance applied to model');
#97=(
NAMED_UNIT(*)
SI_UNIT($,.STERADIAN.)
SOLID_ANGLE_UNIT()
);
#98=(
NAMED_UNIT(*)
PLANE_ANGLE_UNIT()
SI_UNIT($,.RADIAN.)
);
#99=(
LENGTH_UNIT()
NAMED_UNIT(*)
SI_UNIT(.MILLI.,.METRE.)
);
#100=PRODUCT_DEFINITION_SHAPE('','',#103);
#101=PRODUCT_DEFINITION_SHAPE('','',#104);
#102=PRODUCT_DEFINITION_SHAPE(' ','NAUO PRDDFN',#19);
#103=PRODUCT_DEFINITION('','',#107,#105);
#104=PRODUCT_DEFINITION('','',#108,#106);
#105=PRODUCT_DEFINITION_CONTEXT('',#118,'design');
#106=PRODUCT_DEFINITION_CONTEXT('',#118,'design');
#107=PRODUCT_DEFINITION_FORMATION_WITH_SPECIFIED_SOURCE('','',#111,
 .NOT_KNOWN.);
#108=PRODUCT_DEFINITION_FORMATION_WITH_SPECIFIED_SOURCE('','',#112,
 .NOT_KNOWN.);
#109=PRODUCT_RELATED_PRODUCT_CATEGORY('','',(#111));
#110=PRODUCT_RELATED_PRODUCT_CATEGORY('','',(#112));
#111=PRODUCT('807_TR3','807_TR3','807_TR3',(#115));
#112=PRODUCT('TR3','TR3','TR3',(#116));
#113=PRODUCT_CATEGORY('','');
#114=PRODUCT_CATEGORY('','');
#115=PRODUCT_CONTEXT('',#118,'mechanical');
#116=PRODUCT_CONTEXT('',#118,'mechanical');
#117=APPLICATION_PROTOCOL_DEFINITION('international standard',
'automotive_design',2010,#118);
#118=APPLICATION_CONTEXT(
'core data for automotive mechanical design processes');
ENDSEC;
END-ISO-10303-21;
